  0
SECTION
  2
HEADER
  9
$ACADVER
  1
AC1018
  9
$ACADMAINTVER
 70
     0
  9
$DWGCODEPAGE
  3
ANSI_1252
  9
$INSBASE
 10
0.0
 20
0.0
 30
0.0
  9
$EXTMIN
 10
1.000000000000000E+20
 20
1.000000000000000E+20
 30
1.000000000000000E+20
  9
$EXTMAX
 10
-1.000000000000000E+20
 20
-1.000000000000000E+20
 30
-1.000000000000000E+20
  9
$LIMMIN
 10
0.0
 20
0.0
  9
$LIMMAX
 10
12.0
 20
9.0
  9
$ORTHOMODE
 70
     0
  9
$REGENMODE
 70
     1
  9
$FILLMODE
 70
     1
  9
$QTEXTMODE
 70
     0
  9
$MIRRTEXT
 70
     1
  9
$LTSCALE
 40
1.0
  9
$ATTMODE
 70
     1
  9
$TEXTSIZE
 40
0.1
  9
$TRACEWID
 40
0.05
  9
$TEXTSTYLE
  7
Standard
  9
$CLAYER
  8
0
  9
$CELTYPE
  6
ByLayer
  9
$CECOLOR
 62
     3
  9
$CELTSCALE
 40
1.0
  9
$DISPSILH
 70
     0
  9
$DIMSCALE
 40
1.0
  9
$DIMASZ
 40
0.18
  9
$DIMEXO
 40
0.0625
  9
$DIMDLI
 40
0.38
  9
$DIMRND
 40
0.0
  9
$DIMDLE
 40
0.0
  9
$DIMEXE
 40
0.045
  9
$DIMTP
 40
0.001
  9
$DIMTM
 40
-0.001
  9
$DIMTXT
 40
0.1
  9
$DIMCEN
 40
0.09
  9
$DIMTSZ
 40
0.0
  9
$DIMTOL
 70
     0
  9
$DIMLIM
 70
     0
  9
$DIMTIH
 70
     1
  9
$DIMTOH
 70
     1
  9
$DIMSE1
 70
     0
  9
$DIMSE2
 70
     0
  9
$DIMTAD
 70
     0
  9
$DIMZIN
 70
     0
  9
$DIMBLK
  1

  9
$DIMASO
 70
     1
  9
$DIMSHO
 70
     1
  9
$DIMPOST
  1

  9
$DIMAPOST
  1

  9
$DIMALT
 70
     0
  9
$DIMALTD
 70
     2
  9
$DIMALTF
 40
25.4
  9
$DIMLFAC
 40
1.0
  9
$DIMTOFL
 70
     0
  9
$DIMTVP
 40
0.0
  9
$DIMTIX
 70
     0
  9
$DIMSOXD
 70
     0
  9
$DIMSAH
 70
     0
  9
$DIMBLK1
  1

  9
$DIMBLK2
  1

  9
$DIMSTYLE
  2
Standard
  9
$DIMCLRD
 70
     0
  9
$DIMCLRE
 70
     0
  9
$DIMCLRT
 70
     0
  9
$DIMTFAC
 40
1.0
  9
$DIMGAP
 40
0.09
  9
$DIMJUST
 70
     0
  9
$DIMSD1
 70
     0
  9
$DIMSD2
 70
     0
  9
$DIMTOLJ
 70
     1
  9
$DIMTZIN
 70
     0
  9
$DIMALTZ
 70
     0
  9
$DIMALTTZ
 70
     0
  9
$DIMUPT
 70
     0
  9
$DIMDEC
 70
     4
  9
$DIMTDEC
 70
     4
  9
$DIMALTU
 70
     2
  9
$DIMALTTD
 70
     2
  9
$DIMTXSTY
  7
Standard
  9
$DIMAUNIT
 70
     0
  9
$DIMADEC
 70
     0
  9
$DIMALTRND
 40
0.0
  9
$DIMAZIN
 70
     0
  9
$DIMDSEP
 70
    46
  9
$DIMATFIT
 70
     3
  9
$DIMFRAC
 70
     0
  9
$DIMLDRBLK
  1

  9
$DIMLUNIT
 70
     2
  9
$DIMLWD
 70
    -2
  9
$DIMLWE
 70
    -2
  9
$DIMTMOVE
 70
     0
  9
$LUNITS
 70
     2
  9
$LUPREC
 70
     8
  9
$SKETCHINC
 40
0.1
  9
$FILLETRAD
 40
0.5
  9
$AUNITS
 70
     0
  9
$AUPREC
 70
     0
  9
$MENU
  1
.
  9
$ELEVATION
 40
0.0
  9
$PELEVATION
 40
0.0
  9
$THICKNESS
 40
0.0
  9
$LIMCHECK
 70
     0
  9
$CHAMFERA
 40
0.5
  9
$CHAMFERB
 40
0.5
  9
$CHAMFERC
 40
1.0
  9
$CHAMFERD
 40
0.0
  9
$SKPOLY
 70
     0
  9
$TDCREATE
 40
2453581.701632361
  9
$TDUCREATE
 40
2453581.868299028
  9
$TDUPDATE
 40
2453581.701632373
  9
$TDUUPDATE
 40
2453581.86829904
  9
$TDINDWG
 40
0.0000000116
  9
$TDUSRTIMER
 40
0.0000000116
  9
$USRTIMER
 70
     1
  9
$ANGBASE
 50
0.0
  9
$ANGDIR
 70
     0
  9
$PDMODE
 70
     2
  9
$PDSIZE
 40
0.0
  9
$PLINEWID
 40
0.0
  9
$SPLFRAME
 70
     0
  9
$SPLINETYPE
 70
     6
  9
$SPLINESEGS
 70
     8
  9
$HANDSEED
  5
93
  9
$SURFTAB1
 70
     6
  9
$SURFTAB2
 70
     6
  9
$SURFTYPE
 70
     6
  9
$SURFU
 70
     6
  9
$SURFV
 70
     6
  9
$UCSBASE
  2

  9
$UCSNAME
  2

  9
$UCSORG
 10
0.0
 20
0.0
 30
0.0
  9
$UCSXDIR
 10
1.0
 20
0.0
 30
0.0
  9
$UCSYDIR
 10
0.0
 20
1.0
 30
0.0
  9
$UCSORTHOREF
  2

  9
$UCSORTHOVIEW
 70
     0
  9
$UCSORGTOP
 10
0.0
 20
0.0
 30
0.0
  9
$UCSORGBOTTOM
 10
0.0
 20
0.0
 30
0.0
  9
$UCSORGLEFT
 10
0.0
 20
0.0
 30
0.0
  9
$UCSORGRIGHT
 10
0.0
 20
0.0
 30
0.0
  9
$UCSORGFRONT
 10
0.0
 20
0.0
 30
0.0
  9
$UCSORGBACK
 10
0.0
 20
0.0
 30
0.0
  9
$PUCSBASE
  2

  9
$PUCSNAME
  2

  9
$PUCSORG
 10
0.0
 20
0.0
 30
0.0
  9
$PUCSXDIR
 10
1.0
 20
0.0
 30
0.0
  9
$PUCSYDIR
 10
0.0
 20
1.0
 30
0.0
  9
$PUCSORTHOREF
  2

  9
$PUCSORTHOVIEW
 70
     0
  9
$PUCSORGTOP
 10
0.0
 20
0.0
 30
0.0
  9
$PUCSORGBOTTOM
 10
0.0
 20
0.0
 30
0.0
  9
$PUCSORGLEFT
 10
0.0
 20
0.0
 30
0.0
  9
$PUCSORGRIGHT
 10
0.0
 20
0.0
 30
0.0
  9
$PUCSORGFRONT
 10
0.0
 20
0.0
 30
0.0
  9
$PUCSORGBACK
 10
0.0
 20
0.0
 30
0.0
  9
$USERI1
 70
     0
  9
$USERI2
 70
     0
  9
$USERI3
 70
     0
  9
$USERI4
 70
     0
  9
$USERI5
 70
     0
  9
$USERR1
 40
0.0
  9
$USERR2
 40
0.0
  9
$USERR3
 40
0.0
  9
$USERR4
 40
0.0
  9
$USERR5
 40
0.0
  9
$WORLDVIEW
 70
     1
  9
$SHADEDGE
 70
     3
  9
$SHADEDIF
 70
    70
  9
$TILEMODE
 70
     1
  9
$MAXACTVP
 70
    64
  9
$PINSBASE
 10
0.0
 20
0.0
 30
0.0
  9
$PLIMCHECK
 70
     0
  9
$PEXTMIN
 10
1.000000000000000E+20
 20
1.000000000000000E+20
 30
1.000000000000000E+20
  9
$PEXTMAX
 10
-1.000000000000000E+20
 20
-1.000000000000000E+20
 30
-1.000000000000000E+20
  9
$PLIMMIN
 10
0.0
 20
0.0
  9
$PLIMMAX
 10
12.0
 20
9.0
  9
$UNITMODE
 70
     0
  9
$VISRETAIN
 70
     1
  9
$PLINEGEN
 70
     0
  9
$PSLTSCALE
 70
     1
  9
$TREEDEPTH
 70
  3020
  9
$CMLSTYLE
  2
Standard
  9
$CMLJUST
 70
     0
  9
$CMLSCALE
 40
1.0
  9
$PROXYGRAPHICS
 70
     1
  9
$MEASUREMENT
 70
     0
  9
$CELWEIGHT
370
    -1
  9
$ENDCAPS
280
     0
  9
$JOINSTYLE
280
     0
  9
$LWDISPLAY
290
     0
  9
$INSUNITS
 70
     1
  9
$HYPERLINKBASE
  1

  9
$STYLESHEET
  1

  9
$XEDIT
290
     1
  9
$CEPSNTYPE
380
     0
  9
$PSTYLEMODE
290
     1
  9
$FINGERPRINTGUID
  2
{FAEB1C30-E019-11D5-929B-00C0DF256EC4}
  9
$VERSIONGUID
  2
{FAEB1C32-E019-11D5-929B-00C0DF256EC4}
  9
$EXTNAMES
290
     1
  9
$PSVPSCALE
 40
0.0
  9
$OLESTARTUP
290
     0
  9
$SORTENTS
280
   127
  9
$INDEXCTL
280
     0
  9
$HIDETEXT
280
     1
  9
$XCLIPFRAME
290
     0
  9
$HALOGAP
280
     0
  9
$OBSCOLOR
 70
   257
  9
$OBSLTYPE
280
     0
  9
$INTERSECTIONDISPLAY
280
     0
  9
$INTERSECTIONCOLOR
 70
   257
  9
$DIMASSOC
280
     2
  9
$PROJECTNAME
  1

  0
ENDSEC
  0
SECTION
  2
CLASSES
  0
CLASS
  1
ACDBDICTIONARYWDFLT
  2
AcDbDictionaryWithDefault
  3
ObjectDBX Classes
 90
        0
 91
        1
280
     0
281
     0
  0
ENDSEC
  0
SECTION
  2
TABLES
  0
TABLE
  2
VPORT
  5
8
330
0
100
AcDbSymbolTable
 70
     1
  0
VPORT
  5
29
330
8
100
AcDbSymbolTableRecord
100
AcDbViewportTableRecord
  2
*Active
 70
     0
 10
0.0
 20
0.0
 11
1.0
 21
1.0
 12
0.0
 22
0.0
 13
0.0
 23
0.0
 14
0.5
 24
0.5
 15
0.5
 25
0.5
 16
0.0
 26
0.0
 36
1.0
 17
8.885738002139501
 27
7.360228212945237
 37
0.0
 40
3.533762709074383
 41
0.6664860674294991
 42
50.0
 43
0.0
 44
0.0
 50
0.0
 51
0.0
 71
     0
 72
 10000
 73
     1
 74
     3
 75
     0
 76
     0
 77
     0
 78
     0
281
     0
 65
     1
110
0.0
120
0.0
130
0.0
111
1.0
121
0.0
131
0.0
112
0.0
122
1.0
132
0.0
 79
     0
146
0.0
  0
ENDTAB
  0
TABLE
  2
LTYPE
  5
5
330
0
100
AcDbSymbolTable
 70
     4
  0
LTYPE
  5
14
330
5
100
AcDbSymbolTableRecord
100
AcDbLinetypeTableRecord
  2
ByBlock
 70
     0
  3

 72
    65
 73
     0
 40
0.0
  0
LTYPE
  5
15
330
5
100
AcDbSymbolTableRecord
100
AcDbLinetypeTableRecord
  2
ByLayer
 70
     0
  3

 72
    65
 73
     0
 40
0.0
  0
LTYPE
  5
16
330
5
100
AcDbSymbolTableRecord
100
AcDbLinetypeTableRecord
  2
Continuous
 70
     0
  3
Solid line
 72
    65
 73
     0
 40
0.0
  0
LTYPE
  5
2A
330
5
100
AcDbSymbolTableRecord
100
AcDbLinetypeTableRecord
  2
DASHED
 70
     0
  3
_ _ _ _ _ _ _ _ _ _ _ _ _ _ _ _
 72
    65
 73
     2
 40
0.2
 49
0.1
 74
     0
 49
-0.1
 74
     0
  0
LTYPE
  5
2B
330
5
100
AcDbSymbolTableRecord
100
AcDbLinetypeTableRecord
  2
CENTER
 70
     0
  3
___ _ ___ _ ___ _ ___ _ ___ _ ___ _ ___ _ ___ _
 72
    65
 73
     4
 40
0.95
 49
0.625
 74
     0
 49
-0.125
 74
     0
 49
0.075
 74
     0
 49
-0.125
 74
     0
  0
LTYPE
  5
2C
330
5
100
AcDbSymbolTableRecord
100
AcDbLinetypeTableRecord
  2
PHANTOM
 70
     0
  3
______  __  __  ______  __  __  ______  __  __  
 72
    65
 73
     6
 40
1.025
 49
0.625
 74
     0
 49
-0.125
 74
     0
 49
0.075
 74
     0
 49
-0.125
 74
     0
 49
0.075
 74
     0
 49
-0.125
 74
     0
  0
ENDTAB
  0
TABLE
  2
LAYER
  5
2
330
0
100
AcDbSymbolTable
 70
     5
  0
LAYER
  5
10
330
2
100
AcDbSymbolTableRecord
100
AcDbLayerTableRecord
  2
0
 70
     0
 62
     7
  6
Continuous
370
    -3
390
F
  0
LAYER
  5
2D
330
2
100
AcDbSymbolTableRecord
100
AcDbLayerTableRecord
  2
MICRO-CLAMP [1]
 70
     0
 62
   255
  6
Continuous
370
     0
390
F
  0
LAYER
  5
2E
330
2
100
AcDbSymbolTableRecord
100
AcDbLayerTableRecord
  2
Pipe & Tube [2]
 70
     1
 62
   255
  6
Continuous
370
     0
390
F
  0
LAYER
  5
2F
330
2
100
AcDbSymbolTableRecord
100
AcDbLayerTableRecord
  2
Lines [3]
 70
     0
 62
   255
  6
Continuous
370
     0
390
F
  0
LAYER
  5
30
330
2
100
AcDbSymbolTableRecord
100
AcDbLayerTableRecord
  2
Unnamed [10]
 70
     1
 62
   255
  6
Continuous
370
     0
390
F
  0
ENDTAB
  0
TABLE
  2
STYLE
  5
3
330
0
100
AcDbSymbolTable
 70
     1
  0
STYLE
  5
11
330
3
100
AcDbSymbolTableRecord
100
AcDbTextStyleTableRecord
  2
Standard
 70
     0
 40
0.0
 41
1.0
 50
0.0
 71
     0
 42
0.2
  3
txt
  4

  0
ENDTAB
  0
TABLE
  2
VIEW
  5
6
330
0
100
AcDbSymbolTable
 70
     0
  0
ENDTAB
  0
TABLE
  2
UCS
  5
7
330
0
100
AcDbSymbolTable
 70
     0
  0
ENDTAB
  0
TABLE
  2
APPID
  5
9
330
0
100
AcDbSymbolTable
 70
     1
  0
APPID
  5
12
330
9
100
AcDbSymbolTableRecord
100
AcDbRegAppTableRecord
  2
ACAD
 70
     0
  0
ENDTAB
  0
TABLE
  2
DIMSTYLE
  5
A
330
0
100
AcDbSymbolTable
 70
     1
100
AcDbDimStyleTable
  0
DIMSTYLE
105
27
330
A
100
AcDbSymbolTableRecord
100
AcDbDimStyleTableRecord
  2
Standard
 70
     0
340
11
  0
ENDTAB
  0
TABLE
  2
BLOCK_RECORD
  5
1
330
0
100
AcDbSymbolTable
 70
     1
  0
BLOCK_RECORD
  5
1F
330
1
100
AcDbSymbolTableRecord
100
AcDbBlockTableRecord
  2
*Model_Space
340
22
  0
BLOCK_RECORD
  5
1B
330
1
100
AcDbSymbolTableRecord
100
AcDbBlockTableRecord
  2
*Paper_Space
340
1E
  0
BLOCK_RECORD
  5
23
330
1
100
AcDbSymbolTableRecord
100
AcDbBlockTableRecord
  2
*Paper_Space0
340
26
  0
ENDTAB
  0
ENDSEC
  0
SECTION
  2
BLOCKS
  0
BLOCK
  5
20
330
1F
100
AcDbEntity
  8
0
100
AcDbBlockBegin
  2
*Model_Space
 70
     0
 71
     0
 10
0.0
 20
0.0
 30
0.0
  3
*Model_Space
  1

  0
ENDBLK
  5
21
330
1F
100
AcDbEntity
  8
0
100
AcDbBlockEnd
  0
BLOCK
  5
1C
330
1B
100
AcDbEntity
 67
     1
  8
0
100
AcDbBlockBegin
  2
*Paper_Space
 70
     0
 71
     0
 10
0.0
 20
0.0
 30
0.0
  3
*Paper_Space
  1

  0
ENDBLK
  5
1D
330
1B
100
AcDbEntity
 67
     1
  8
0
100
AcDbBlockEnd
  0
BLOCK
  5
24
330
23
100
AcDbEntity
  8
0
100
AcDbBlockBegin
  2
*Paper_Space0
 70
     0
 71
     0
 10
0.0
 20
0.0
 30
0.0
  3
*Paper_Space0
  1

  0
ENDBLK
  5
25
330
23
100
AcDbEntity
  8
0
100
AcDbBlockEnd
  0
ENDSEC
  0
SECTION
  2
ENTITIES
  0
ARC
  5
31
330
1F
100
AcDbEntity
  8
MICRO-CLAMP [1]
  6
Continuous
 62
     3
370
     0
100
AcDbCircle
 10
8.998742905139499
 20
8.36405262668243
 30
0.6402
 40
0.3748563059999999
100
AcDbArc
 50
46.24344300000011
 51
82.08583760427305
  0
ARC
  5
32
330
1F
100
AcDbEntity
  8
MICRO-CLAMP [1]
  6
Continuous
 62
     3
370
     0
100
AcDbCircle
 10
9.271717142939499
 20
8.649140088682428
 30
0.6402
 40
0.0198462
100
AcDbArc
 50
226.2434430000014
 51
313.0926970000016
  0
ARC
  5
33
330
1F
100
AcDbEntity
  8
MICRO-CLAMP [1]
  6
Continuous
 62
     3
370
     0
100
AcDbCircle
 10
9.2694335495395
 20
8.729412846082429
 30
0.6402
 40
0.080025
100
AcDbArc
 50
313.0926970000012
 51
42.33141500000047
  0
ARC
  5
34
330
1F
100
AcDbEntity
  8
MICRO-CLAMP [1]
  6
Continuous
 62
     3
370
     0
100
AcDbCircle
 10
9.220020992939501
 20
8.873019949282426
 30
0.6402
 40
0.0198462
100
AcDbArc
 50
42.33141500000037
 51
67.30008300000004
  0
ARC
  5
35
330
1F
100
AcDbEntity
  8
MICRO-CLAMP [1]
  6
Continuous
 62
     3
370
     0
100
AcDbCircle
 10
8.779041629939501
 20
9.057484616482428
 30
0.6402
 40
0.0198462
100
AcDbArc
 50
67.30008300000004
 51
74.40319900000065
  0
ARC
  5
36
330
1F
100
AcDbEntity
  8
MICRO-CLAMP [1]
  6
Continuous
 62
     3
370
     0
100
AcDbCircle
 10
8.1083681099395
 20
8.761137316882429
 30
0.6402
 40
0.3201
100
AcDbArc
 50
106.9855840000001
 51
166.2348340000005
  0
ARC
  5
37
330
1F
100
AcDbEntity
  8
MICRO-CLAMP [1]
  6
Continuous
 62
     3
370
     0
100
AcDbCircle
 10
10.8182674889395
 20
8.097268482682429
 30
0.6402
 40
3.1101312924
100
AcDbArc
 50
166.2348340000004
 51
194.5668710000005
  0
ARC
  5
38
330
1F
100
AcDbEntity
  8
MICRO-CLAMP [1]
  6
Continuous
 62
     3
370
     0
100
AcDbCircle
 10
8.1179224547395
 20
7.395548463682428
 30
0.6402
 40
0.3201
100
AcDbArc
 50
194.5668710000005
 51
247.2975440000007
  0
ARC
  5
39
330
1F
100
AcDbEntity
  8
MICRO-CLAMP [1]
  6
Continuous
 62
     3
370
     0
100
AcDbCircle
 10
8.144462585939502
 20
6.690477637882428
 30
0.6402
 40
0.3201
100
AcDbArc
 50
0.0
 51
67.29754400000016
  0
ARC
  5
3A
330
1F
100
AcDbEntity
  8
MICRO-CLAMP [1]
  6
Continuous
 62
     3
370
     0
100
AcDbCircle
 10
8.956875745739502
 20
5.613193251682429
 30
0.6402
 40
0.0198462
100
AcDbArc
 50
270.0
 51
0.0
  0
ARC
  5
3B
330
1F
100
AcDbEntity
  8
MICRO-CLAMP [1]
  6
Continuous
 62
     3
370
     0
100
AcDbCircle
 10
9.296821945739501
 20
6.511723554682428
 30
0.6402
 40
0.3201
100
AcDbArc
 50
90.0
 51
180.0
  0
ARC
  5
3C
330
1F
100
AcDbEntity
  8
MICRO-CLAMP [1]
  6
Continuous
 62
     3
370
     0
100
AcDbCircle
 10
9.417208354739499
 20
6.671773554682428
 30
0.6402
 40
0.16005
100
AcDbArc
 50
52.80797799999991
 51
90.0
  0
ARC
  5
3D
330
1F
100
AcDbEntity
  8
MICRO-CLAMP [1]
  6
Continuous
 62
     3
370
     0
100
AcDbCircle
 10
9.693998184539503
 20
6.763108968082428
 30
0.6402
 40
0.080025
100
AcDbArc
 50
232.8079780000003
 51
311.9997280000007
  0
ARC
  5
3E
330
1F
100
AcDbEntity
  8
MICRO-CLAMP [1]
  6
Continuous
 62
     3
370
     0
100
AcDbCircle
 10
9.9833148077395
 20
7.023608268682427
 30
0.6402
 40
0.080025
100
AcDbArc
 50
311.9997280000007
 51
41.99975400000088
  0
ARC
  5
3F
330
1F
100
AcDbEntity
  8
MICRO-CLAMP [1]
  6
Continuous
 62
     3
370
     0
100
AcDbCircle
 10
9.751152039539498
 20
7.281452659882428
 30
0.6402
 40
0.080025
100
AcDbArc
 50
41.99975400000042
 51
132.0002089999999
  0
ARC
  5
40
330
1F
100
AcDbEntity
  8
MICRO-CLAMP [1]
  6
Continuous
 62
     3
370
     0
100
AcDbCircle
 10
9.552303998939498
 20
7.317776967682427
 30
0.6402
 40
0.080025
100
AcDbArc
 50
267.6408070000002
 51
312.0002090000013
  0
ARC
  5
41
330
1F
100
AcDbEntity
  8
MICRO-CLAMP [1]
  6
Continuous
 62
     3
370
     0
100
AcDbCircle
 10
8.629512036539499
 20
7.870676094682428
 30
0.6402
 40
0.5012766
100
AcDbArc
 50
184.8779736997092
 51
256.3738160000005
  0
ARC
  5
42
330
1F
100
AcDbEntity
  8
MICRO-CLAMP [1]
  6
Continuous
 62
     3
370
     0
100
AcDbCircle
 10
8.448335465914006
 20
8.482643081408048
 30
0.6402
 40
0.3027531408
100
AcDbArc
 50
77.45745943464186
 51
180.5971371004698
  0
ARC
  5
43
330
1F
100
AcDbEntity
  8
MICRO-CLAMP [1]
  6
Continuous
 62
     3
370
     0
100
AcDbCircle
 10
8.642937473124674
 20
8.758862627771686
 30
0.6402
 40
0.009603
100
AcDbArc
 50
218.4218990000032
 51
308.4218990000032
  0
ARC
  5
44
330
1F
100
AcDbEntity
  8
MICRO-CLAMP [1]
  6
Continuous
 62
     3
370
     0
100
AcDbCircle
 10
8.716558339124672
 20
8.750372508771685
 30
0.6402
 40
0.009603
100
AcDbArc
 50
218.4218990000032
 51
308.4218990000032
  0
ARC
  5
45
330
1F
100
AcDbEntity
  8
MICRO-CLAMP [1]
  6
Continuous
 62
     3
370
     0
100
AcDbCircle
 10
8.790180272124673
 20
8.741882389771686
 30
0.6402
 40
0.009603
100
AcDbArc
 50
218.4218990000032
 51
308.4218990000032
  0
ARC
  5
46
330
1F
100
AcDbEntity
  8
MICRO-CLAMP [1]
  6
Continuous
 62
     3
370
     0
100
AcDbCircle
 10
8.863801138124673
 20
8.733393337771686
 30
0.6402
 40
0.009603
100
AcDbArc
 50
218.4218990000032
 51
308.4218990000032
  0
ARC
  5
47
330
1F
100
AcDbEntity
  8
MICRO-CLAMP [1]
  6
Continuous
 62
     3
370
     0
100
AcDbCircle
 10
8.937423071124673
 20
8.724903218771686
 30
0.6402
 40
0.009603
100
AcDbArc
 50
218.4218990000032
 51
308.4218990000032
  0
ARC
  5
48
330
1F
100
AcDbEntity
  8
MICRO-CLAMP [1]
  6
Continuous
 62
     3
370
     0
100
AcDbCircle
 10
9.011045004124673
 20
8.716413099771684
 30
0.6402
 40
0.009603
100
AcDbArc
 50
218.4218990000032
 51
308.4218990000032
  0
ARC
  5
49
330
1F
100
AcDbEntity
  8
MICRO-CLAMP [1]
  6
Continuous
 62
     3
370
     0
100
AcDbCircle
 10
8.152016189418943
 20
8.45798076182024
 30
0.6401999999999998
 40
0.01067
100
AcDbArc
 50
315.0000000000068
 51
45.00000000000674
  0
ARC
  5
4A
330
1F
100
AcDbEntity
  8
MICRO-CLAMP [1]
  6
Continuous
 62
     3
370
     0
100
AcDbCircle
 10
8.152016147838676
 20
8.383871168239976
 30
0.6402
 40
0.01067
100
AcDbArc
 50
315.0
 51
45.0
  0
ARC
  5
4B
330
1F
100
AcDbEntity
  8
MICRO-CLAMP [1]
  6
Continuous
 62
     3
370
     0
100
AcDbCircle
 10
8.152016147838676
 20
8.309761616239975
 30
0.6402
 40
0.01067
100
AcDbArc
 50
315.0000000000068
 51
45.00000000000674
  0
ARC
  5
4C
330
1F
100
AcDbEntity
  8
MICRO-CLAMP [1]
  6
Continuous
 62
     3
370
     0
100
AcDbCircle
 10
8.152016147838678
 20
8.235652064239977
 30
0.6402
 40
0.01067
100
AcDbArc
 50
315.0
 51
45.0
  0
ARC
  5
4D
330
1F
100
AcDbEntity
  8
MICRO-CLAMP [1]
  6
Continuous
 62
     3
370
     0
100
AcDbCircle
 10
8.152015614338678
 20
8.161543045739975
 30
0.6402
 40
0.01067
100
AcDbArc
 50
315.0000000000068
 51
45.00000000000674
  0
ARC
  5
4E
330
1F
100
AcDbEntity
  8
MICRO-CLAMP [1]
  6
Continuous
 62
     3
370
     0
100
AcDbCircle
 10
8.152016147838676
 20
8.087434027239976
 30
0.6402
 40
0.01067
100
AcDbArc
 50
314.9999999999932
 51
44.99999999999325
  0
ARC
  5
4F
330
1F
100
AcDbEntity
  8
MICRO-CLAMP [1]
  6
Continuous
 62
     3
370
     0
100
AcDbCircle
 10
8.152016147838678
 20
8.013324475239976
 30
0.6402
 40
0.01067
100
AcDbArc
 50
315.0000000000068
 51
45.00000000000674
  0
ARC
  5
50
330
1F
100
AcDbEntity
  8
MICRO-CLAMP [1]
  6
Continuous
 62
     3
370
     0
100
AcDbCircle
 10
8.152016147838678
 20
7.939214923239977
 30
0.6402
 40
0.01067
100
AcDbArc
 50
315.0000000000034
 51
45.00000000000674
  0
ARC
  5
51
330
1F
100
AcDbEntity
  8
MICRO-CLAMP [1]
  6
Continuous
 62
     3
370
     0
100
AcDbCircle
 10
8.152016147838678
 20
7.865105371239976
 30
0.6402
 40
0.01067
100
AcDbArc
 50
315.0000000000034
 51
45.00000000000674
  0
ARC
  5
52
330
1F
100
AcDbEntity
  8
MICRO-CLAMP [1]
  6
Continuous
 62
     3
370
     0
100
AcDbCircle
 10
8.569488935475956
 20
8.76885125809077
 30
0.6402
 40
0.01067
100
AcDbArc
 50
218.4224547033783
 51
308.4215670449116
  0
ARC
  5
53
330
1F
100
AcDbEntity
  8
MICRO-CLAMP [1]
  6
Continuous
 62
     3
370
     0
100
AcDbCircle
 10
8.415573841739501
 20
7.755408084682428
 30
0.6402
 40
1.3717014828
100
AcDbArc
 50
74.4031990000002
 51
106.9855840000002
  0
ARC
  5
54
330
1F
100
AcDbEntity
  8
MICRO-CLAMP [1]
  6
Continuous
 62
     3
370
     0
100
AcDbCircle
 10
9.7686941597395
 20
12.57009172328243
 30
0.6402
 40
5.3367955476
100
AcDbArc
 50
256.3738160000006
 51
267.6408070000006
  0
ARC
  5
55
330
1F
100
AcDbEntity
  8
MICRO-CLAMP [1]
  6
Continuous
 62
     3
370
     0
100
AcDbCircle
 10
8.4844087859395
 20
5.613193251682429
 30
0.6402
 40
0.0198462
100
AcDbArc
 50
180.0
 51
270.0
  0
LINE
  5
56
330
1F
100
AcDbEntity
  8
MICRO-CLAMP [1]
  6
Continuous
 62
     3
370
     0
100
AcDbLine
 10
9.285275938739499
 20
8.634647881282428
 30
0.6402
 11
9.324105349139501
 21
8.670974109682428
 31
0.6402
  0
LINE
  5
57
330
1F
100
AcDbEntity
  8
MICRO-CLAMP [1]
  6
Continuous
 62
     3
370
     0
100
AcDbLine
 10
9.328593151139501
 20
8.783302961482427
 30
0.6402
 11
9.234692456339502
 21
8.886384764482429
 31
0.6402
  0
LINE
  5
58
330
1F
100
AcDbEntity
  8
MICRO-CLAMP [1]
  6
Continuous
 62
     3
370
     0
100
AcDbLine
 10
10.03686180531401
 20
6.964137336608046
 30
0.6402
 11
9.747545182114006
 21
6.703638036008045
 31
0.6402
  0
LINE
  5
59
330
1F
100
AcDbEntity
  8
MICRO-CLAMP [1]
  6
Continuous
 62
     3
370
     0
100
AcDbLine
 10
9.810622807714008
 20
7.334999434808045
 30
0.6402
 11
10.04278493571401
 21
7.077155043608046
 31
0.6402
  0
LINE
  5
5A
330
1F
100
AcDbEntity
  8
MICRO-CLAMP [1]
  6
Continuous
 62
     3
370
     0
100
AcDbLine
 10
9.697605100714007
 20
7.340922565208045
 30
0.6402
 11
9.605851636714007
 21
7.258306675808045
 31
0.6402
  0
LINE
  5
5B
330
1F
100
AcDbEntity
  8
MICRO-CLAMP [1]
  6
Continuous
 62
     3
370
     0
100
AcDbLine
 10
9.645624061714004
 20
6.699359579408045
 30
0.6402
 11
9.513956688514007
 21
6.799271112008045
 31
0.6402
  0
LINE
  5
5C
330
1F
100
AcDbEntity
  8
MICRO-CLAMP [1]
  6
Continuous
 62
     3
370
     0
100
AcDbLine
 10
9.296821975114005
 20
6.831823361408046
 30
0.6402
 11
9.417208384114007
 21
6.831823361408046
 31
0.6402
  0
LINE
  5
5D
330
1F
100
AcDbEntity
  8
MICRO-CLAMP [1]
  6
Continuous
 62
     3
370
     0
100
AcDbLine
 10
8.976721975114005
 20
5.613193058408047
 30
0.6402
 11
8.976721975114005
 21
6.511723361408046
 31
0.6402
  0
LINE
  5
5E
330
1F
100
AcDbEntity
  8
MICRO-CLAMP [1]
  6
Continuous
 62
     3
370
     0
100
AcDbLine
 10
7.994381169514007
 20
7.100248978208046
 30
0.6402
 11
8.268003929914006
 21
6.985776736808045
 31
0.6402
  0
LINE
  5
5F
330
1F
100
AcDbEntity
  8
MICRO-CLAMP [1]
  6
Continuous
 62
     3
370
     0
100
AcDbLine
 10
8.786700371914005
 20
9.075793503008047
 30
0.6402
 11
9.227679734914007
 21
8.891328835808045
 31
0.6402
  0
LINE
  5
60
330
1F
100
AcDbEntity
  8
MICRO-CLAMP [1]
  6
Continuous
 62
     3
370
     0
100
AcDbLine
 10
8.514082678431368
 20
8.778171029850256
 30
0.6402
 11
8.535193947124673
 21
8.794916557771686
 31
0.6402
  0
LINE
  5
61
330
1F
100
AcDbEntity
  8
MICRO-CLAMP [1]
  6
Continuous
 62
     3
370
     0
100
AcDbLine
 10
8.535193947124673
 20
8.794916557771686
 30
0.6402
 11
8.56112952435956
 21
8.76222033464173
 31
0.6402
  0
LINE
  5
62
330
1F
100
AcDbEntity
  8
MICRO-CLAMP [1]
  6
Continuous
 62
     3
370
     0
100
AcDbLine
 10
8.576119729415501
 20
8.760491744245377
 30
0.6402
 11
8.608815880124674
 21
8.786426438771684
 31
0.6402
  0
LINE
  5
63
330
1F
100
AcDbEntity
  8
MICRO-CLAMP [1]
  6
Continuous
 62
     3
370
     0
100
AcDbLine
 10
8.608815880124674
 20
8.786426438771684
 30
0.6402
 11
8.635414056124674
 21
8.752894896771684
 31
0.6402
  0
LINE
  5
64
330
1F
100
AcDbEntity
  8
MICRO-CLAMP [1]
  6
Continuous
 62
     3
370
     0
100
AcDbLine
 10
8.648905204124674
 20
8.751339210771684
 30
0.6402
 11
8.682436746124674
 21
8.777937386771685
 31
0.6402
  0
LINE
  5
65
330
1F
100
AcDbEntity
  8
MICRO-CLAMP [1]
  6
Continuous
 62
     3
370
     0
100
AcDbLine
 10
8.682436746124674
 20
8.777937386771685
 30
0.6402
 11
8.709034922124674
 21
8.744404777771685
 31
0.6402
  0
LINE
  5
66
330
1F
100
AcDbEntity
  8
MICRO-CLAMP [1]
  6
Continuous
 62
     3
370
     0
100
AcDbLine
 10
8.722526070124674
 20
8.742849091771685
 30
0.6402
 11
8.756058679124672
 21
8.769447267771685
 31
0.6402
  0
LINE
  5
67
330
1F
100
AcDbEntity
  8
MICRO-CLAMP [1]
  6
Continuous
 62
     3
370
     0
100
AcDbLine
 10
8.756058679124672
 20
8.769447267771685
 30
0.6402
 11
8.782656855124674
 21
8.735914658771684
 31
0.6402
  0
LINE
  5
68
330
1F
100
AcDbEntity
  8
MICRO-CLAMP [1]
  6
Continuous
 62
     3
370
     0
100
AcDbLine
 10
8.796148003124674
 20
8.734358972771684
 30
0.6402
 11
8.829679545124673
 21
8.760957148771686
 31
0.6402
  0
LINE
  5
69
330
1F
100
AcDbEntity
  8
MICRO-CLAMP [1]
  6
Continuous
 62
     3
370
     0
100
AcDbLine
 10
8.829679545124673
 20
8.760957148771686
 30
0.6402
 11
8.856277721124673
 21
8.727425606771686
 31
0.6402
  0
LINE
  5
6A
330
1F
100
AcDbEntity
  8
MICRO-CLAMP [1]
  6
Continuous
 62
     3
370
     0
100
AcDbLine
 10
8.869768869124673
 20
8.725869920771684
 30
0.6402
 11
8.903301478124673
 21
8.752468096771686
 31
0.6402
  0
LINE
  5
6B
330
1F
100
AcDbEntity
  8
MICRO-CLAMP [1]
  6
Continuous
 62
     3
370
     0
100
AcDbLine
 10
8.903301478124673
 20
8.752468096771686
 30
0.6402
 11
8.929899654124673
 21
8.718935487771685
 31
0.6402
  0
LINE
  5
6C
330
1F
100
AcDbEntity
  8
MICRO-CLAMP [1]
  6
Continuous
 62
     3
370
     0
100
AcDbLine
 10
8.943390802124675
 20
8.717379801771685
 30
0.6402
 11
8.976923411124673
 21
8.743977977771683
 31
0.6402
  0
LINE
  5
6D
330
1F
100
AcDbEntity
  8
MICRO-CLAMP [1]
  6
Continuous
 62
     3
370
     0
100
AcDbLine
 10
8.976923411124673
 20
8.743977977771683
 30
0.6402
 11
9.003520520124674
 21
8.710445368771685
 31
0.6402
  0
LINE
  5
6E
330
1F
100
AcDbEntity
  8
MICRO-CLAMP [1]
  6
Continuous
 62
     3
370
     0
100
AcDbLine
 10
9.017012735124673
 20
8.708889682771684
 30
0.6402
 11
9.050356636150841
 21
8.735338598568056
 31
0.6402
  0
LINE
  5
6F
330
1F
100
AcDbEntity
  8
MICRO-CLAMP [1]
  6
Continuous
 62
     3
370
     0
100
AcDbLine
 10
8.130051030549199
 20
7.828050595239976
 30
0.6402
 11
8.1603154185492
 21
7.858314983239976
 31
0.6402
  0
LINE
  5
70
330
1F
100
AcDbEntity
  8
MICRO-CLAMP [1]
  6
Continuous
 62
     3
370
     0
100
AcDbLine
 10
8.159560977193939
 20
7.872650200595237
 30
0.6402
 11
8.130051030549199
 21
7.902160147239976
 31
0.6402
  0
LINE
  5
71
330
1F
100
AcDbEntity
  8
MICRO-CLAMP [1]
  6
Continuous
 62
     3
370
     0
100
AcDbLine
 10
8.130051030549199
 20
7.902160147239976
 30
0.6402
 11
8.159560977193939
 21
7.931670093884716
 31
0.6402
  0
LINE
  5
72
330
1F
100
AcDbEntity
  8
MICRO-CLAMP [1]
  6
Continuous
 62
     3
370
     0
100
AcDbLine
 10
8.159560977193937
 20
7.946759752595237
 30
0.6402
 11
8.130051030549199
 21
7.976269699239976
 31
0.6402
  0
LINE
  5
73
330
1F
100
AcDbEntity
  8
MICRO-CLAMP [1]
  6
Continuous
 62
     3
370
     0
100
AcDbLine
 10
8.130051030549199
 20
7.976269699239976
 30
0.6402
 11
8.159560977193939
 21
8.005779645884717
 31
0.6402
  0
LINE
  5
74
330
1F
100
AcDbEntity
  8
MICRO-CLAMP [1]
  6
Continuous
 62
     3
370
     0
100
AcDbLine
 10
8.159560977193939
 20
8.020869304595237
 30
0.6402
 11
8.130051030549199
 21
8.050379251239976
 31
0.6402
  0
LINE
  5
75
330
1F
100
AcDbEntity
  8
MICRO-CLAMP [1]
  6
Continuous
 62
     3
370
     0
100
AcDbLine
 10
8.130051030549199
 20
8.050379251239976
 30
0.6402
 11
8.159560977193937
 21
8.079889197884713
 31
0.6402
  0
LINE
  5
76
330
1F
100
AcDbEntity
  8
MICRO-CLAMP [1]
  6
Continuous
 62
     3
370
     0
100
AcDbLine
 10
8.159560977193937
 20
8.094978856595235
 30
0.6402
 11
8.130051030549199
 21
8.124488803239977
 31
0.6402
  0
LINE
  5
77
330
1F
100
AcDbEntity
  8
MICRO-CLAMP [1]
  6
Continuous
 62
     3
370
     0
100
AcDbLine
 10
8.130051030549199
 20
8.124488803239977
 30
0.6402
 11
8.159560443693939
 21
8.153998216384718
 31
0.6402
  0
LINE
  5
78
330
1F
100
AcDbEntity
  8
MICRO-CLAMP [1]
  6
Continuous
 62
     3
370
     0
100
AcDbLine
 10
8.159560443693939
 20
8.169087875095235
 30
0.6402
 11
8.130051030549199
 21
8.198597288239975
 31
0.6402
  0
LINE
  5
79
330
1F
100
AcDbEntity
  8
MICRO-CLAMP [1]
  6
Continuous
 62
     3
370
     0
100
AcDbLine
 10
8.130051030549199
 20
8.198597288239975
 30
0.6402
 11
8.159560977193939
 21
8.228107234884716
 31
0.6402
  0
LINE
  5
7A
330
1F
100
AcDbEntity
  8
MICRO-CLAMP [1]
  6
Continuous
 62
     3
370
     0
100
AcDbLine
 10
8.159560977193937
 20
8.243196893595236
 30
0.6402
 11
8.130051030549199
 21
8.272706840239973
 31
0.6402
  0
LINE
  5
7B
330
1F
100
AcDbEntity
  8
MICRO-CLAMP [1]
  6
Continuous
 62
     3
370
     0
100
AcDbLine
 10
8.130051030549199
 20
8.272706840239973
 30
0.6402
 11
8.159560977193937
 21
8.302216786884715
 31
0.6402
  0
LINE
  5
7C
330
1F
100
AcDbEntity
  8
MICRO-CLAMP [1]
  6
Continuous
 62
     3
370
     0
100
AcDbLine
 10
8.159560977193937
 20
8.317306445595238
 30
0.6402
 11
8.130051030549199
 21
8.346816392239976
 31
0.6402
  0
LINE
  5
7D
330
1F
100
AcDbEntity
  8
MICRO-CLAMP [1]
  6
Continuous
 62
     3
370
     0
100
AcDbLine
 10
8.130051030549199
 20
8.346816392239976
 30
0.6402
 11
8.1603154185492
 21
8.377080780239977
 31
0.6402
  0
LINE
  5
7E
330
1F
100
AcDbEntity
  8
MICRO-CLAMP [1]
  6
Continuous
 62
     3
370
     0
100
AcDbLine
 10
8.159560977193937
 20
8.391415997595237
 30
0.6402
 11
8.130051030549199
 21
8.420925944239976
 31
0.6402
  0
LINE
  5
7F
330
1F
100
AcDbEntity
  8
MICRO-CLAMP [1]
  6
Continuous
 62
     3
370
     0
100
AcDbLine
 10
8.130051030549199
 20
7.828050595239976
 30
0.6402
 11
8.159560977193939
 21
7.857560541884716
 31
0.6402
  0
LINE
  5
80
330
1F
100
AcDbEntity
  8
MICRO-CLAMP [1]
  6
Continuous
 62
     3
370
     0
100
AcDbLine
 10
8.1603154185492
 20
7.871895759239976
 30
0.6402
 11
8.130051030549199
 21
7.902160147239976
 31
0.6402
  0
LINE
  5
81
330
1F
100
AcDbEntity
  8
MICRO-CLAMP [1]
  6
Continuous
 62
     3
370
     0
100
AcDbLine
 10
8.130051030549199
 20
7.902160147239976
 30
0.6402
 11
8.1603154185492
 21
7.932424535239976
 31
0.6402
  0
LINE
  5
82
330
1F
100
AcDbEntity
  8
MICRO-CLAMP [1]
  6
Continuous
 62
     3
370
     0
100
AcDbLine
 10
8.1603154185492
 20
7.946005311239976
 30
0.6402
 11
8.130051030549199
 21
7.976269699239976
 31
0.6402
  0
LINE
  5
83
330
1F
100
AcDbEntity
  8
MICRO-CLAMP [1]
  6
Continuous
 62
     3
370
     0
100
AcDbLine
 10
8.130051030549199
 20
7.976269699239976
 30
0.6402
 11
8.1603154185492
 21
8.006534087239976
 31
0.6402
  0
LINE
  5
84
330
1F
100
AcDbEntity
  8
MICRO-CLAMP [1]
  6
Continuous
 62
     3
370
     0
100
AcDbLine
 10
8.1603154185492
 20
8.020114863239977
 30
0.6402
 11
8.130051030549199
 21
8.050379251239976
 31
0.6402
  0
LINE
  5
85
330
1F
100
AcDbEntity
  8
MICRO-CLAMP [1]
  6
Continuous
 62
     3
370
     0
100
AcDbLine
 10
8.130051030549199
 20
8.050379251239976
 30
0.6402
 11
8.1603154185492
 21
8.080643639239975
 31
0.6402
  0
LINE
  5
86
330
1F
100
AcDbEntity
  8
MICRO-CLAMP [1]
  6
Continuous
 62
     3
370
     0
100
AcDbLine
 10
8.1603154185492
 20
8.094224415239975
 30
0.6402
 11
8.130051030549199
 21
8.124488803239977
 31
0.6402
  0
LINE
  5
87
330
1F
100
AcDbEntity
  8
MICRO-CLAMP [1]
  6
Continuous
 62
     3
370
     0
100
AcDbLine
 10
8.130051030549199
 20
8.124488803239977
 30
0.6402
 11
8.1603154185492
 21
8.154753191239978
 31
0.6402
  0
LINE
  5
88
330
1F
100
AcDbEntity
  8
MICRO-CLAMP [1]
  6
Continuous
 62
     3
370
     0
100
AcDbLine
 10
8.1603154185492
 20
8.168332900239975
 30
0.6402
 11
8.130051030549199
 21
8.198597288239975
 31
0.6402
  0
LINE
  5
89
330
1F
100
AcDbEntity
  8
MICRO-CLAMP [1]
  6
Continuous
 62
     3
370
     0
100
AcDbLine
 10
8.130051030549199
 20
8.198597288239975
 30
0.6402
 11
8.1603154185492
 21
8.228861676239974
 31
0.6402
  0
LINE
  5
8A
330
1F
100
AcDbEntity
  8
MICRO-CLAMP [1]
  6
Continuous
 62
     3
370
     0
100
AcDbLine
 10
8.1603154185492
 20
8.242442452239974
 30
0.6402
 11
8.130051030549199
 21
8.272706840239973
 31
0.6402
  0
LINE
  5
8B
330
1F
100
AcDbEntity
  8
MICRO-CLAMP [1]
  6
Continuous
 62
     3
370
     0
100
AcDbLine
 10
8.130051030549199
 20
8.272706840239973
 30
0.6402
 11
8.1603154185492
 21
8.302971228239978
 31
0.6402
  0
LINE
  5
8C
330
1F
100
AcDbEntity
  8
MICRO-CLAMP [1]
  6
Continuous
 62
     3
370
     0
100
AcDbLine
 10
8.1603154185492
 20
8.316552004239977
 30
0.6402
 11
8.130051030549199
 21
8.346816392239976
 31
0.6402
  0
LINE
  5
8D
330
1F
100
AcDbEntity
  8
MICRO-CLAMP [1]
  6
Continuous
 62
     3
370
     0
100
AcDbLine
 10
8.130051030549199
 20
8.346816392239976
 30
0.6402
 11
8.159560977193937
 21
8.376326338884715
 31
0.6402
  0
LINE
  5
8E
330
1F
100
AcDbEntity
  8
MICRO-CLAMP [1]
  6
Continuous
 62
     3
370
     0
100
AcDbLine
 10
8.1603154185492
 20
8.390661556239975
 30
0.6402
 11
8.130051030549199
 21
8.420925944239976
 31
0.6402
  0
LINE
  5
8F
330
1F
100
AcDbEntity
  8
MICRO-CLAMP [1]
  6
Continuous
 62
     3
370
     0
100
AcDbLine
 10
8.130051030549199
 20
8.420925944239976
 30
0.6402
 11
8.159561018774204
 21
8.450435932464981
 31
0.6402
  0
LINE
  5
90
330
1F
100
AcDbEntity
  8
MICRO-CLAMP [1]
  6
Continuous
 62
     3
370
     0
100
AcDbLine
 10
8.159561018774204
 20
8.465525591175501
 30
0.6402
 11
8.145598767225003
 21
8.479487842724701
 31
0.6402
  0
LINE
  5
91
330
1F
100
AcDbEntity
  8
MICRO-CLAMP [1]
  6
Continuous
 62
     3
370
     0
100
AcDbLine
 10
8.464562615314007
 20
5.613193058408047
 30
0.6402
 11
8.464562615314007
 21
6.690477444608046
 31
0.6402
  0
LINE
  5
92
330
1F
100
AcDbEntity
  8
MICRO-CLAMP [1]
  6
Continuous
 62
     3
370
     0
100
AcDbLine
 10
8.484408815314007
 20
5.593346858408046
 30
0.6402
 11
8.956875775114005
 21
5.593346858408046
 31
0.6402
  0
ENDSEC
  0
SECTION
  2
OBJECTS
  0
DICTIONARY
  5
C
330
0
100
AcDbDictionary
281
     1
  3
ACAD_GROUP
350
D
  3
ACAD_LAYOUT
350
1A
  3
ACAD_MLINESTYLE
350
17
  3
ACAD_PLOTSETTINGS
350
19
  3
ACAD_PLOTSTYLENAME
350
E
  0
DICTIONARY
  5
D
102
{ACAD_REACTORS
330
C
102
}
330
C
100
AcDbDictionary
281
     1
  0
DICTIONARY
  5
1A
102
{ACAD_REACTORS
330
C
102
}
330
C
100
AcDbDictionary
281
     1
  3
Layout1
350
1E
  3
Layout2
350
26
  3
Model
350
22
  0
DICTIONARY
  5
17
102
{ACAD_REACTORS
330
C
102
}
330
C
100
AcDbDictionary
281
     1
  3
Standard
350
18
  0
DICTIONARY
  5
19
102
{ACAD_REACTORS
330
C
102
}
330
C
100
AcDbDictionary
281
     1
  0
ACDBDICTIONARYWDFLT
  5
E
102
{ACAD_REACTORS
330
C
102
}
330
C
100
AcDbDictionary
281
     1
  3
Normal
350
F
100
AcDbDictionaryWithDefault
340
F
  0
LAYOUT
  5
1E
102
{ACAD_REACTORS
330
1A
102
}
330
1A
100
AcDbPlotSettings
  1

  2

  4

  6

 40
0.0
 41
0.0
 42
0.0
 43
0.0
 44
0.0
 45
0.0
 46
0.0
 47
0.0
 48
0.0
 49
0.0
140
0.0
141
0.0
142
1.0
143
1.0
 70
   688
 72
     0
 73
     0
 74
     5
  7

 75
    16
 76
     0
 77
     2
 78
   300
147
1.0
148
0.0
149
0.0
100
AcDbLayout
  1
Layout1
 70
     1
 71
     1
 10
0.0
 20
0.0
 11
12.0
 21
9.0
 12
0.0
 22
0.0
 32
0.0
 14
1.000000000000000E+20
 24
1.000000000000000E+20
 34
1.000000000000000E+20
 15
-1.000000000000000E+20
 25
-1.000000000000000E+20
 35
-1.000000000000000E+20
146
0.0
 13
0.0
 23
0.0
 33
0.0
 16
1.0
 26
0.0
 36
0.0
 17
0.0
 27
1.0
 37
0.0
 76
     0
330
1B
  0
LAYOUT
  5
26
102
{ACAD_REACTORS
330
1A
102
}
330
1A
100
AcDbPlotSettings
  1

  2

  4

  6

 40
0.0
 41
0.0
 42
0.0
 43
0.0
 44
0.0
 45
0.0
 46
0.0
 47
0.0
 48
0.0
 49
0.0
140
0.0
141
0.0
142
1.0
143
1.0
 70
   688
 72
     0
 73
     0
 74
     5
  7

 75
    16
 76
     0
 77
     2
 78
   300
147
1.0
148
0.0
149
0.0
100
AcDbLayout
  1
Layout2
 70
     1
 71
     2
 10
0.0
 20
0.0
 11
0.0
 21
0.0
 12
0.0
 22
0.0
 32
0.0
 14
0.0
 24
0.0
 34
0.0
 15
0.0
 25
0.0
 35
0.0
146
0.0
 13
0.0
 23
0.0
 33
0.0
 16
1.0
 26
0.0
 36
0.0
 17
0.0
 27
1.0
 37
0.0
 76
     0
330
23
  0
LAYOUT
  5
22
102
{ACAD_REACTORS
330
1A
102
}
330
1A
100
AcDbPlotSettings
  1

  2

  4

  6

 40
0.0
 41
0.0
 42
0.0
 43
0.0
 44
0.0
 45
0.0
 46
0.0
 47
0.0
 48
0.0
 49
0.0
140
0.0
141
0.0
142
1.0
143
1.0
 70
  1712
 72
     0
 73
     0
 74
     0
  7

 75
     0
 76
     0
 77
     2
 78
   300
147
1.0
148
0.0
149
0.0
100
AcDbLayout
  1
Model
 70
     1
 71
     0
 10
0.0
 20
0.0
 11
0.0
 21
0.0
 12
0.0
 22
0.0
 32
0.0
 14
0.0
 24
0.0
 34
0.0
 15
0.0
 25
0.0
 35
0.0
146
0.0
 13
0.0
 23
0.0
 33
0.0
 16
1.0
 26
0.0
 36
0.0
 17
0.0
 27
1.0
 37
0.0
 76
     0
330
1F
  0
MLINESTYLE
  5
18
102
{ACAD_REACTORS
330
17
102
}
330
17
100
AcDbMlineStyle
  2
Standard
 70
     0
  3

 62
   256
 51
90.0
 52
90.0
 71
     2
 49
0.5
 62
   256
  6
BYLAYER
 49
-0.5
 62
   256
  6
BYLAYER
  0
ACDBPLACEHOLDER
  5
F
102
{ACAD_REACTORS
330
E
102
}
330
E
  0
ENDSEC
  0
EOF
